ISO-10303-21;
HEADER;
FILE_DESCRIPTION (( 'STEP AP203' ),
    '1' );
FILE_NAME ('QB-CTZQWP-50.8-633-M.STEP',
    '2020-12-24T01:52:51',
    ( '' ),
    ( '' ),
    'SwSTEP 2.0',
    'SolidWorks 2020',
    '' );
FILE_SCHEMA (( 'CONFIG_CONTROL_DESIGN' ));
ENDSEC;

DATA;
#1 = DIRECTION ( 'NONE',  ( -1.000000000000000000, -0.000000000000000000, -0.000000000000000000 ) ) ;
#2 = DESIGN_CONTEXT ( 'detailed design', #11, 'design' ) ;
#3 = LOCAL_TIME ( 9, 52, 51.00000000000000000, #50 ) ;
#4 = APPROVAL_ROLE ( '' ) ;
#5 = MECHANICAL_CONTEXT ( 'NONE', #16, 'mechanical' ) ;
#6 = APPROVAL_STATUS ( 'not_yet_approved' ) ;
#7 = DIRECTION ( 'NONE',  ( 0.000000000000000000, 0.000000000000000000, -1.000000000000000000 ) ) ;
#8 = FACE_OUTER_BOUND ( 'NONE', #39, .T. ) ;
#9 = PERSON_AND_ORGANIZATION ( #148, #21 ) ;
#10 = VERTEX_POINT ( 'NONE', #69 ) ;
#11 = APPLICATION_CONTEXT ( 'configuration controlled 3d designs of mechanical parts and assemblies' ) ;
#12 = ORIENTED_EDGE ( 'NONE', *, *, #28, .T. ) ;
#13 = ORIENTED_EDGE ( 'NONE', *, *, #14, .T. ) ;
#14 = EDGE_CURVE ( 'NONE', #10, #174, #82, .T. ) ;
#15 = VECTOR ( 'NONE', #110, 1000.000000000000000 ) ;
#16 = APPLICATION_CONTEXT ( 'configuration controlled 3d designs of mechanical parts and assemblies' ) ;
#17 = APPROVAL ( #131, 'UNSPECIFIED' ) ;
#18 = CLOSED_SHELL ( 'NONE', ( #80, #26, #95, #71 ) ) ;
#19 = DATE_TIME_ROLE ( 'classification_date' ) ;
#20 = CARTESIAN_POINT ( 'NONE',  ( 3.000000000000002665, 0.000000000000000000, 25.39999999999999858 ) ) ;
#21 = ORGANIZATION ( 'UNSPECIFIED', 'UNSPECIFIED', '' ) ;
#22 = PERSON_AND_ORGANIZATION ( #148, #21 ) ;
#23 = CARTESIAN_POINT ( 'NONE',  ( 3.000000000000002665, 3.110602869834276865E-15, -25.39999999999999858 ) ) ;
#24 = COORDINATED_UNIVERSAL_TIME_OFFSET ( 8, 0, .AHEAD. ) ;
#25 = CARTESIAN_POINT ( 'NONE',  ( -3.000000000000000000, 3.110602869834276865E-15, -25.39999999999999858 ) ) ;
#26 = ADVANCED_FACE ( 'NONE', ( #8 ), #106, .T. ) ;
#27 = PERSON_AND_ORGANIZATION ( #148, #21 ) ;
#28 = EDGE_CURVE ( 'NONE', #83, #67, #68, .T. ) ;
#29 = CARTESIAN_POINT ( 'NONE',  ( 3.000000000000001332, 25.39999999999999858, 0.000000000000000000 ) ) ;
#30 = PERSON_AND_ORGANIZATION_ROLE ( 'classification_officer' ) ;
#31 = DIRECTION ( 'NONE',  ( 0.000000000000000000, 0.000000000000000000, 1.000000000000000000 ) ) ;
#32 = DATE_AND_TIME ( #170, #166 ) ;
#33 = APPLICATION_PROTOCOL_DEFINITION ( 'international standard', 'config_control_design', 1994, #11 ) ;
#34 = CC_DESIGN_PERSON_AND_ORGANIZATION_ASSIGNMENT ( #72, #159, ( #96 ) ) ;
#35 =( NAMED_UNIT ( * ) PLANE_ANGLE_UNIT ( ) SI_UNIT ( $, .RADIAN. ) );
#36 = APPROVAL_DATE_TIME ( #156, #17 ) ;
#37 = ORIENTED_EDGE ( 'NONE', *, *, #149, .T. ) ;
#38 = PRODUCT_DEFINITION_FORMATION_WITH_SPECIFIED_SOURCE ( 'ANY', '', #96, .NOT_KNOWN. ) ;
#39 = EDGE_LOOP ( 'NONE', ( #93, #53, #37, #81 ) ) ;
#40 = CC_DESIGN_DATE_AND_TIME_ASSIGNMENT ( #117, #112, ( #107 ) ) ;
#41 = ORIENTED_EDGE ( 'NONE', *, *, #28, .F. ) ;
#42 = AXIS2_PLACEMENT_3D ( 'NONE', #122, #175, #55 ) ;
#43 = EDGE_CURVE ( 'NONE', #67, #174, #99, .T. ) ;
#44 = CARTESIAN_POINT ( 'NONE',  ( -3.000000000000000000, 0.000000000000000000, 25.39999999999999858 ) ) ;
#45 = DIRECTION ( 'NONE',  ( -1.000000000000000000, 0.000000000000000000, -0.000000000000000000 ) ) ;
#46 = DATE_AND_TIME ( #61, #146 ) ;
#47 = VECTOR ( 'NONE', #143, 1000.000000000000000 ) ;
#48 = AXIS2_PLACEMENT_3D ( 'NONE', #49, #87, #57 ) ;
#49 = CARTESIAN_POINT ( 'NONE',  ( 3.000000000000002665, 0.000000000000000000, 0.000000000000000000 ) ) ;
#50 = COORDINATED_UNIVERSAL_TIME_OFFSET ( 8, 0, .AHEAD. ) ;
#51 = CC_DESIGN_DATE_AND_TIME_ASSIGNMENT ( #139, #19, ( #105 ) ) ;
#52 = CARTESIAN_POINT ( 'NONE',  ( 3.000000000000002665, 0.000000000000000000, 0.000000000000000000 ) ) ;
#53 = ORIENTED_EDGE ( 'NONE', *, *, #124, .T. ) ;
#54 = APPROVAL_PERSON_ORGANIZATION ( #126, #134, #4 ) ;
#55 = DIRECTION ( 'NONE',  ( 0.000000000000000000, 0.000000000000000000, 1.000000000000000000 ) ) ;
#56 = PRODUCT_RELATED_PRODUCT_CATEGORY ( 'detail', '', ( #96 ) ) ;
#57 = DIRECTION ( 'NONE',  ( 0.000000000000000000, 0.000000000000000000, 1.000000000000000000 ) ) ;
#58 = CC_DESIGN_APPROVAL ( #17, ( #38 ) ) ;
#59 = PERSON_AND_ORGANIZATION_ROLE ( 'design_supplier' ) ;
#60 = DIRECTION ( 'NONE',  ( 0.000000000000000000, 0.000000000000000000, 1.000000000000000000 ) ) ;
#61 = CALENDAR_DATE ( 2020, 24, 12 ) ;
#62 = CARTESIAN_POINT ( 'NONE',  ( -3.000000000000000000, 0.000000000000000000, 0.000000000000000000 ) ) ;
#63 = CC_DESIGN_PERSON_AND_ORGANIZATION_ASSIGNMENT ( #9, #120, ( #38 ) ) ;
#64 = CARTESIAN_POINT ( 'NONE',  ( -3.000000000000000000, 0.000000000000000000, 0.000000000000000000 ) ) ;
#65 = PERSON_AND_ORGANIZATION_ROLE ( 'creator' ) ;
#66 = ORIENTED_EDGE ( 'NONE', *, *, #89, .T. ) ;
#67 = VERTEX_POINT ( 'NONE', #23 ) ;
#68 = CIRCLE ( 'NONE', #151, 25.39999999999999858 ) ;
#69 = CARTESIAN_POINT ( 'NONE',  ( -3.000000000000002665, 0.000000000000000000, 25.39999999999999858 ) ) ;
#70 = AXIS2_PLACEMENT_3D ( 'NONE', #111, #31, #128 ) ;
#71 = ADVANCED_FACE ( 'NONE', ( #154 ), #130, .F. ) ;
#72 = PERSON_AND_ORGANIZATION ( #148, #21 ) ;
#73 = DIRECTION ( 'NONE',  ( -0.000000000000000000, 0.000000000000000000, 1.000000000000000000 ) ) ;
#74 = APPROVAL_STATUS ( 'not_yet_approved' ) ;
#75 = CARTESIAN_POINT ( 'NONE',  ( -3.000000000000001332, 25.39999999999999858, 0.000000000000000000 ) ) ;
#76 = PERSON_AND_ORGANIZATION ( #148, #21 ) ;
#77 = PRODUCT_DEFINITION_SHAPE ( 'NONE', 'NONE',  #107 ) ;
#78 = APPROVAL_DATE_TIME ( #32, #164 ) ;
#79 = ORIENTED_EDGE ( 'NONE', *, *, #149, .F. ) ;
#80 = ADVANCED_FACE ( 'NONE', ( #125 ), #158, .T. ) ;
#81 = ORIENTED_EDGE ( 'NONE', *, *, #89, .F. ) ;
#82 = CIRCLE ( 'NONE', #42, 25.39999999999999858 ) ;
#83 = VERTEX_POINT ( 'NONE', #20 ) ;
#84 = CC_DESIGN_APPROVAL ( #164, ( #107 ) ) ;
#85 = CALENDAR_DATE ( 2020, 24, 12 ) ;
#86 = ADVANCED_BREP_SHAPE_REPRESENTATION ( 'QB-CTZQWP-50.8-633-M', ( #152, #70 ), #141 ) ;
#87 = DIRECTION ( 'NONE',  ( -1.000000000000000000, -0.000000000000000000, -0.000000000000000000 ) ) ;
#88 = COORDINATED_UNIVERSAL_TIME_OFFSET ( 8, 0, .AHEAD. ) ;
#89 = EDGE_CURVE ( 'NONE', #174, #10, #109, .T. ) ;
#90 = APPROVAL_ROLE ( '' ) ;
#91 =( NAMED_UNIT ( * ) SI_UNIT ( $, .STERADIAN. ) SOLID_ANGLE_UNIT ( ) );
#92 = DIRECTION ( 'NONE',  ( -1.000000000000000000, -0.000000000000000000, -0.000000000000000000 ) ) ;
#93 = ORIENTED_EDGE ( 'NONE', *, *, #43, .F. ) ;
#94 = LOCAL_TIME ( 9, 52, 51.00000000000000000, #24 ) ;
#95 = ADVANCED_FACE ( 'NONE', ( #171 ), #97, .F. ) ;
#96 = PRODUCT ( 'QB-CTZQWP-50.8-633-M', 'QB-CTZQWP-50.8-633-M', '', ( #5 ) ) ;
#97 = PLANE ( 'NONE',  #155 ) ;
#98 = LINE ( 'NONE', #44, #15 ) ;
#99 = LINE ( 'NONE', #25, #47 ) ;
#100 = APPROVAL_DATE_TIME ( #46, #134 ) ;
#101 = CIRCLE ( 'NONE', #48, 25.39999999999999858 ) ;
#102 = CALENDAR_DATE ( 2020, 24, 12 ) ;
#103 = CARTESIAN_POINT ( 'NONE',  ( -3.000000000000002665, 3.110602869834276865E-15, -25.39999999999999858 ) ) ;
#104 = EDGE_LOOP ( 'NONE', ( #41, #173 ) ) ;
#105 = SECURITY_CLASSIFICATION ( '', '', #129 ) ;
#106 = CYLINDRICAL_SURFACE ( 'NONE', #163, 25.39999999999999858 ) ;
#107 = PRODUCT_DEFINITION ( 'UNKNOWN', '', #38, #2 ) ;
#108 = CC_DESIGN_APPROVAL ( #134, ( #105 ) ) ;
#109 = CIRCLE ( 'NONE', #157, 25.39999999999999858 ) ;
#110 = DIRECTION ( 'NONE',  ( -1.000000000000000000, -0.000000000000000000, -0.000000000000000000 ) ) ;
#111 = CARTESIAN_POINT ( 'NONE',  ( 0.000000000000000000, 0.000000000000000000, 0.000000000000000000 ) ) ;
#112 = DATE_TIME_ROLE ( 'creation_date' ) ;
#113 = CARTESIAN_POINT ( 'NONE',  ( -3.000000000000002665, 0.000000000000000000, 0.000000000000000000 ) ) ;
#114 = SHAPE_DEFINITION_REPRESENTATION ( #77, #86 ) ;
#115 = AXIS2_PLACEMENT_3D ( 'NONE', #62, #1, #140 ) ;
#116 = DIRECTION ( 'NONE',  ( -1.000000000000000000, -0.000000000000000000, -0.000000000000000000 ) ) ;
#117 = DATE_AND_TIME ( #102, #94 ) ;
#118 = CC_DESIGN_PERSON_AND_ORGANIZATION_ASSIGNMENT ( #153, #59, ( #38 ) ) ;
#119 = DIRECTION ( 'NONE',  ( 0.000000000000000000, 0.000000000000000000, 1.000000000000000000 ) ) ;
#120 = PERSON_AND_ORGANIZATION_ROLE ( 'creator' ) ;
#121 = ORIENTED_EDGE ( 'NONE', *, *, #43, .T. ) ;
#122 = CARTESIAN_POINT ( 'NONE',  ( -3.000000000000002665, 0.000000000000000000, 0.000000000000000000 ) ) ;
#123 = DIRECTION ( 'NONE',  ( 1.000000000000000000, 0.000000000000000000, 0.000000000000000000 ) ) ;
#124 = EDGE_CURVE ( 'NONE', #67, #83, #101, .T. ) ;
#125 = FACE_OUTER_BOUND ( 'NONE', #132, .T. ) ;
#126 = PERSON_AND_ORGANIZATION ( #148, #21 ) ;
#127 = LOCAL_TIME ( 9, 52, 51.00000000000000000, #88 ) ;
#128 = DIRECTION ( 'NONE',  ( 1.000000000000000000, 0.000000000000000000, 0.000000000000000000 ) ) ;
#129 = SECURITY_CLASSIFICATION_LEVEL ( 'unclassified' ) ;
#130 = PLANE ( 'NONE',  #135 ) ;
#131 = APPROVAL_STATUS ( 'not_yet_approved' ) ;
#132 = EDGE_LOOP ( 'NONE', ( #12, #121, #133, #79 ) ) ;
#133 = ORIENTED_EDGE ( 'NONE', *, *, #14, .F. ) ;
#134 = APPROVAL ( #6, 'UNSPECIFIED' ) ;
#135 = AXIS2_PLACEMENT_3D ( 'NONE', #75, #123, #7 ) ;
#136 = APPROVAL_PERSON_ORGANIZATION ( #22, #17, #172 ) ;
#137 = CC_DESIGN_SECURITY_CLASSIFICATION ( #105, ( #38 ) ) ;
#138 = UNCERTAINTY_MEASURE_WITH_UNIT (LENGTH_MEASURE( 1.000000000000000082E-05 ), #160, 'distance_accuracy_value', 'NONE');
#139 = DATE_AND_TIME ( #85, #127 ) ;
#140 = DIRECTION ( 'NONE',  ( 0.000000000000000000, 0.000000000000000000, 1.000000000000000000 ) ) ;
#141 =( GEOMETRIC_REPRESENTATION_CONTEXT ( 3 ) GLOBAL_UNCERTAINTY_ASSIGNED_CONTEXT ( ( #138 ) ) GLOBAL_UNIT_ASSIGNED_CONTEXT ( ( #160, #35, #91 ) ) REPRESENTATION_CONTEXT ( 'NONE', 'WORKASPACE' ) );
#142 = PERSON_AND_ORGANIZATION ( #148, #21 ) ;
#143 = DIRECTION ( 'NONE',  ( -1.000000000000000000, -0.000000000000000000, -0.000000000000000000 ) ) ;
#144 = COORDINATED_UNIVERSAL_TIME_OFFSET ( 8, 0, .AHEAD. ) ;
#145 = DIRECTION ( 'NONE',  ( -1.000000000000000000, -0.000000000000000000, -0.000000000000000000 ) ) ;
#146 = LOCAL_TIME ( 9, 52, 51.00000000000000000, #168 ) ;
#147 = CC_DESIGN_PERSON_AND_ORGANIZATION_ASSIGNMENT ( #142, #30, ( #105 ) ) ;
#148 = PERSON ( 'UNSPECIFIED', 'UNSPECIFIED', 'UNSPECIFIED', ('UNSPECIFIED'), ('UNSPECIFIED'), ('UNSPECIFIED') ) ;
#149 = EDGE_CURVE ( 'NONE', #83, #10, #98, .T. ) ;
#150 = APPROVAL_PERSON_ORGANIZATION ( #27, #164, #90 ) ;
#151 = AXIS2_PLACEMENT_3D ( 'NONE', #52, #145, #60 ) ;
#152 = MANIFOLD_SOLID_BREP ( 'Ðý×', #18 ) ;
#153 = PERSON_AND_ORGANIZATION ( #148, #21 ) ;
#154 = FACE_OUTER_BOUND ( 'NONE', #162, .T. ) ;
#155 = AXIS2_PLACEMENT_3D ( 'NONE', #29, #45, #73 ) ;
#156 = DATE_AND_TIME ( #161, #3 ) ;
#157 = AXIS2_PLACEMENT_3D ( 'NONE', #113, #116, #165 ) ;
#158 = CYLINDRICAL_SURFACE ( 'NONE', #115, 25.39999999999999858 ) ;
#159 = PERSON_AND_ORGANIZATION_ROLE ( 'design_owner' ) ;
#160 =( LENGTH_UNIT ( ) NAMED_UNIT ( * ) SI_UNIT ( .MILLI., .METRE. ) );
#161 = CALENDAR_DATE ( 2020, 24, 12 ) ;
#162 = EDGE_LOOP ( 'NONE', ( #13, #66 ) ) ;
#163 = AXIS2_PLACEMENT_3D ( 'NONE', #64, #92, #119 ) ;
#164 = APPROVAL ( #74, 'UNSPECIFIED' ) ;
#165 = DIRECTION ( 'NONE',  ( 0.000000000000000000, 0.000000000000000000, 1.000000000000000000 ) ) ;
#166 = LOCAL_TIME ( 9, 52, 51.00000000000000000, #144 ) ;
#167 = APPLICATION_PROTOCOL_DEFINITION ( 'international standard', 'config_control_design', 1994, #16 ) ;
#168 = COORDINATED_UNIVERSAL_TIME_OFFSET ( 8, 0, .AHEAD. ) ;
#169 = CC_DESIGN_PERSON_AND_ORGANIZATION_ASSIGNMENT ( #76, #65, ( #107 ) ) ;
#170 = CALENDAR_DATE ( 2020, 24, 12 ) ;
#171 = FACE_OUTER_BOUND ( 'NONE', #104, .T. ) ;
#172 = APPROVAL_ROLE ( '' ) ;
#173 = ORIENTED_EDGE ( 'NONE', *, *, #124, .F. ) ;
#174 = VERTEX_POINT ( 'NONE', #103 ) ;
#175 = DIRECTION ( 'NONE',  ( -1.000000000000000000, -0.000000000000000000, -0.000000000000000000 ) ) ;
ENDSEC;
END-ISO-10303-21;
